ISO-10303-21;
HEADER;
/* Generated by software containing ST-Developer
 * from STEP Tools, Inc. (www.steptools.com) 
 */

FILE_DESCRIPTION(
/* description */ (''),
/* implementation_level */ '2;1');

FILE_NAME(
/* name */ 'SV06_channel_insert.step',
/* time_stamp */ '2024-02-10T00:00:00.000Z',
/* author */ (''),
/* organization */ (''),
/* preprocessor_version */ 'ST-DEVELOPER v20',
/* originating_system */ 'Autodesk Translation Framework v12.14.0.127',

/* authorisation */ '');

FILE_SCHEMA (('AUTOMOTIVE_DESIGN { 1 0 10303 214 3 1 1 }'));
ENDSEC;

DATA;
#10=MECHANICAL_DESIGN_GEOMETRIC_PRESENTATION_REPRESENTATION('',(#13),#538);
#11=SHAPE_REPRESENTATION_RELATIONSHIP('SRR','None',#544,#12);
#12=ADVANCED_BREP_SHAPE_REPRESENTATION('',(#14),#537);
#13=STYLED_ITEM('',(#553),#14);
#14=MANIFOLD_SOLID_BREP('Body1',#334);
#15=CIRCLE('',#346,0.300000000000049);
#16=CIRCLE('',#347,0.300000000000049);
#17=CIRCLE('',#352,0.300000000000065);
#18=CIRCLE('',#353,0.300000000000065);
#19=CYLINDRICAL_SURFACE('',#345,0.300000000000049);
#20=CYLINDRICAL_SURFACE('',#351,0.300000000000065);
#21=FACE_OUTER_BOUND('',#38,.T.);
#22=FACE_OUTER_BOUND('',#39,.T.);
#23=FACE_OUTER_BOUND('',#40,.T.);
#24=FACE_OUTER_BOUND('',#41,.T.);
#25=FACE_OUTER_BOUND('',#42,.T.);
#26=FACE_OUTER_BOUND('',#43,.T.);
#27=FACE_OUTER_BOUND('',#44,.T.);
#28=FACE_OUTER_BOUND('',#45,.T.);
#29=FACE_OUTER_BOUND('',#46,.T.);
#30=FACE_OUTER_BOUND('',#47,.T.);
#31=FACE_OUTER_BOUND('',#48,.T.);
#32=FACE_OUTER_BOUND('',#49,.T.);
#33=FACE_OUTER_BOUND('',#50,.T.);
#34=FACE_OUTER_BOUND('',#51,.T.);
#35=FACE_OUTER_BOUND('',#52,.T.);
#36=FACE_OUTER_BOUND('',#53,.T.);
#37=FACE_OUTER_BOUND('',#54,.T.);
#38=EDGE_LOOP('',(#212,#213,#214,#215));
#39=EDGE_LOOP('',(#216,#217,#218,#219));
#40=EDGE_LOOP('',(#220,#221,#222,#223));
#41=EDGE_LOOP('',(#224,#225,#226,#227));
#42=EDGE_LOOP('',(#228,#229,#230,#231));
#43=EDGE_LOOP('',(#232,#233,#234,#235));
#44=EDGE_LOOP('',(#236,#237,#238,#239));
#45=EDGE_LOOP('',(#240,#241,#242,#243));
#46=EDGE_LOOP('',(#244,#245,#246,#247));
#47=EDGE_LOOP('',(#248,#249,#250,#251));
#48=EDGE_LOOP('',(#252,#253,#254,#255));
#49=EDGE_LOOP('',(#256,#257,#258,#259));
#50=EDGE_LOOP('',(#260,#261,#262,#263));
#51=EDGE_LOOP('',(#264,#265,#266,#267));
#52=EDGE_LOOP('',(#268,#269,#270,#271));
#53=EDGE_LOOP('',(#272,#273,#274,#275,#276,#277,#278,#279,#280,#281,#282,
#283,#284,#285,#286));
#54=EDGE_LOOP('',(#287,#288,#289,#290,#291,#292,#293,#294,#295,#296,#297,
#298,#299,#300,#301));
#55=LINE('',#446,#96);
#56=LINE('',#448,#97);
#57=LINE('',#450,#98);
#58=LINE('',#451,#99);
#59=LINE('',#454,#100);
#60=LINE('',#456,#101);
#61=LINE('',#457,#102);
#62=LINE('',#460,#103);
#63=LINE('',#462,#104);
#64=LINE('',#463,#105);
#65=LINE('',#466,#106);
#66=LINE('',#468,#107);
#67=LINE('',#469,#108);
#68=LINE('',#472,#109);
#69=LINE('',#474,#110);
#70=LINE('',#475,#111);
#71=LINE('',#478,#112);
#72=LINE('',#480,#113);
#73=LINE('',#481,#114);
#74=LINE('',#484,#115);
#75=LINE('',#486,#116);
#76=LINE('',#487,#117);
#77=LINE('',#490,#118);
#78=LINE('',#492,#119);
#79=LINE('',#493,#120);
#80=LINE('',#496,#121);
#81=LINE('',#498,#122);
#82=LINE('',#499,#123);
#83=LINE('',#505,#124);
#84=LINE('',#508,#125);
#85=LINE('',#510,#126);
#86=LINE('',#511,#127);
#87=LINE('',#514,#128);
#88=LINE('',#516,#129);
#89=LINE('',#517,#130);
#90=LINE('',#520,#131);
#91=LINE('',#522,#132);
#92=LINE('',#523,#133);
#93=LINE('',#529,#134);
#94=LINE('',#531,#135);
#95=LINE('',#532,#136);
#96=VECTOR('',#361,10.);
#97=VECTOR('',#362,10.);
#98=VECTOR('',#363,10.);
#99=VECTOR('',#364,10.);
#100=VECTOR('',#367,10.);
#101=VECTOR('',#368,10.);
#102=VECTOR('',#369,10.);
#103=VECTOR('',#372,10.);
#104=VECTOR('',#373,10.);
#105=VECTOR('',#374,10.);
#106=VECTOR('',#377,10.);
#107=VECTOR('',#378,10.);
#108=VECTOR('',#379,10.);
#109=VECTOR('',#382,10.);
#110=VECTOR('',#383,10.);
#111=VECTOR('',#384,10.);
#112=VECTOR('',#387,10.);
#113=VECTOR('',#388,10.);
#114=VECTOR('',#389,10.);
#115=VECTOR('',#392,10.);
#116=VECTOR('',#393,10.);
#117=VECTOR('',#394,10.);
#118=VECTOR('',#397,10.);
#119=VECTOR('',#398,10.);
#120=VECTOR('',#399,10.);
#121=VECTOR('',#402,10.);
#122=VECTOR('',#403,10.);
#123=VECTOR('',#404,10.);
#124=VECTOR('',#411,10.);
#125=VECTOR('',#414,10.);
#126=VECTOR('',#415,10.);
#127=VECTOR('',#416,10.);
#128=VECTOR('',#419,10.);
#129=VECTOR('',#420,10.);
#130=VECTOR('',#421,10.);
#131=VECTOR('',#424,10.);
#132=VECTOR('',#425,10.);
#133=VECTOR('',#426,10.);
#134=VECTOR('',#433,10.);
#135=VECTOR('',#436,10.);
#136=VECTOR('',#437,10.);
#137=VERTEX_POINT('',#444);
#138=VERTEX_POINT('',#445);
#139=VERTEX_POINT('',#447);
#140=VERTEX_POINT('',#449);
#141=VERTEX_POINT('',#453);
#142=VERTEX_POINT('',#455);
#143=VERTEX_POINT('',#459);
#144=VERTEX_POINT('',#461);
#145=VERTEX_POINT('',#465);
#146=VERTEX_POINT('',#467);
#147=VERTEX_POINT('',#471);
#148=VERTEX_POINT('',#473);
#149=VERTEX_POINT('',#477);
#150=VERTEX_POINT('',#479);
#151=VERTEX_POINT('',#483);
#152=VERTEX_POINT('',#485);
#153=VERTEX_POINT('',#489);
#154=VERTEX_POINT('',#491);
#155=VERTEX_POINT('',#495);
#156=VERTEX_POINT('',#497);
#157=VERTEX_POINT('',#501);
#158=VERTEX_POINT('',#503);
#159=VERTEX_POINT('',#507);
#160=VERTEX_POINT('',#509);
#161=VERTEX_POINT('',#513);
#162=VERTEX_POINT('',#515);
#163=VERTEX_POINT('',#519);
#164=VERTEX_POINT('',#521);
#165=VERTEX_POINT('',#525);
#166=VERTEX_POINT('',#527);
#167=EDGE_CURVE('',#137,#138,#55,.T.);
#168=EDGE_CURVE('',#138,#139,#56,.T.);
#169=EDGE_CURVE('',#140,#139,#57,.T.);
#170=EDGE_CURVE('',#137,#140,#58,.T.);
#171=EDGE_CURVE('',#141,#137,#59,.T.);
#172=EDGE_CURVE('',#142,#140,#60,.T.);
#173=EDGE_CURVE('',#141,#142,#61,.T.);
#174=EDGE_CURVE('',#143,#141,#62,.T.);
#175=EDGE_CURVE('',#144,#142,#63,.T.);
#176=EDGE_CURVE('',#143,#144,#64,.T.);
#177=EDGE_CURVE('',#143,#145,#65,.T.);
#178=EDGE_CURVE('',#146,#144,#66,.T.);
#179=EDGE_CURVE('',#145,#146,#67,.T.);
#180=EDGE_CURVE('',#145,#147,#68,.T.);
#181=EDGE_CURVE('',#148,#146,#69,.T.);
#182=EDGE_CURVE('',#147,#148,#70,.T.);
#183=EDGE_CURVE('',#147,#149,#71,.T.);
#184=EDGE_CURVE('',#150,#148,#72,.T.);
#185=EDGE_CURVE('',#149,#150,#73,.T.);
#186=EDGE_CURVE('',#149,#151,#74,.T.);
#187=EDGE_CURVE('',#152,#150,#75,.T.);
#188=EDGE_CURVE('',#151,#152,#76,.T.);
#189=EDGE_CURVE('',#151,#153,#77,.T.);
#190=EDGE_CURVE('',#154,#152,#78,.T.);
#191=EDGE_CURVE('',#153,#154,#79,.T.);
#192=EDGE_CURVE('',#155,#153,#80,.T.);
#193=EDGE_CURVE('',#156,#154,#81,.T.);
#194=EDGE_CURVE('',#155,#156,#82,.T.);
#195=EDGE_CURVE('',#157,#155,#15,.T.);
#196=EDGE_CURVE('',#158,#156,#16,.T.);
#197=EDGE_CURVE('',#157,#158,#83,.T.);
#198=EDGE_CURVE('',#157,#159,#84,.T.);
#199=EDGE_CURVE('',#160,#158,#85,.T.);
#200=EDGE_CURVE('',#159,#160,#86,.T.);
#201=EDGE_CURVE('',#161,#159,#87,.T.);
#202=EDGE_CURVE('',#162,#160,#88,.T.);
#203=EDGE_CURVE('',#161,#162,#89,.T.);
#204=EDGE_CURVE('',#163,#161,#90,.T.);
#205=EDGE_CURVE('',#164,#162,#91,.T.);
#206=EDGE_CURVE('',#163,#164,#92,.T.);
#207=EDGE_CURVE('',#165,#163,#17,.T.);
#208=EDGE_CURVE('',#166,#164,#18,.T.);
#209=EDGE_CURVE('',#165,#166,#93,.T.);
#210=EDGE_CURVE('',#165,#138,#94,.T.);
#211=EDGE_CURVE('',#139,#166,#95,.T.);
#212=ORIENTED_EDGE('',*,*,#167,.T.);
#213=ORIENTED_EDGE('',*,*,#168,.T.);
#214=ORIENTED_EDGE('',*,*,#169,.F.);
#215=ORIENTED_EDGE('',*,*,#170,.F.);
#216=ORIENTED_EDGE('',*,*,#171,.T.);
#217=ORIENTED_EDGE('',*,*,#170,.T.);
#218=ORIENTED_EDGE('',*,*,#172,.F.);
#219=ORIENTED_EDGE('',*,*,#173,.F.);
#220=ORIENTED_EDGE('',*,*,#174,.T.);
#221=ORIENTED_EDGE('',*,*,#173,.T.);
#222=ORIENTED_EDGE('',*,*,#175,.F.);
#223=ORIENTED_EDGE('',*,*,#176,.F.);
#224=ORIENTED_EDGE('',*,*,#177,.F.);
#225=ORIENTED_EDGE('',*,*,#176,.T.);
#226=ORIENTED_EDGE('',*,*,#178,.F.);
#227=ORIENTED_EDGE('',*,*,#179,.F.);
#228=ORIENTED_EDGE('',*,*,#180,.F.);
#229=ORIENTED_EDGE('',*,*,#179,.T.);
#230=ORIENTED_EDGE('',*,*,#181,.F.);
#231=ORIENTED_EDGE('',*,*,#182,.F.);
#232=ORIENTED_EDGE('',*,*,#183,.F.);
#233=ORIENTED_EDGE('',*,*,#182,.T.);
#234=ORIENTED_EDGE('',*,*,#184,.F.);
#235=ORIENTED_EDGE('',*,*,#185,.F.);
#236=ORIENTED_EDGE('',*,*,#186,.F.);
#237=ORIENTED_EDGE('',*,*,#185,.T.);
#238=ORIENTED_EDGE('',*,*,#187,.F.);
#239=ORIENTED_EDGE('',*,*,#188,.F.);
#240=ORIENTED_EDGE('',*,*,#189,.F.);
#241=ORIENTED_EDGE('',*,*,#188,.T.);
#242=ORIENTED_EDGE('',*,*,#190,.F.);
#243=ORIENTED_EDGE('',*,*,#191,.F.);
#244=ORIENTED_EDGE('',*,*,#192,.T.);
#245=ORIENTED_EDGE('',*,*,#191,.T.);
#246=ORIENTED_EDGE('',*,*,#193,.F.);
#247=ORIENTED_EDGE('',*,*,#194,.F.);
#248=ORIENTED_EDGE('',*,*,#195,.T.);
#249=ORIENTED_EDGE('',*,*,#194,.T.);
#250=ORIENTED_EDGE('',*,*,#196,.F.);
#251=ORIENTED_EDGE('',*,*,#197,.F.);
#252=ORIENTED_EDGE('',*,*,#198,.F.);
#253=ORIENTED_EDGE('',*,*,#197,.T.);
#254=ORIENTED_EDGE('',*,*,#199,.F.);
#255=ORIENTED_EDGE('',*,*,#200,.F.);
#256=ORIENTED_EDGE('',*,*,#201,.T.);
#257=ORIENTED_EDGE('',*,*,#200,.T.);
#258=ORIENTED_EDGE('',*,*,#202,.F.);
#259=ORIENTED_EDGE('',*,*,#203,.F.);
#260=ORIENTED_EDGE('',*,*,#204,.T.);
#261=ORIENTED_EDGE('',*,*,#203,.T.);
#262=ORIENTED_EDGE('',*,*,#205,.F.);
#263=ORIENTED_EDGE('',*,*,#206,.F.);
#264=ORIENTED_EDGE('',*,*,#207,.T.);
#265=ORIENTED_EDGE('',*,*,#206,.T.);
#266=ORIENTED_EDGE('',*,*,#208,.F.);
#267=ORIENTED_EDGE('',*,*,#209,.F.);
#268=ORIENTED_EDGE('',*,*,#210,.F.);
#269=ORIENTED_EDGE('',*,*,#209,.T.);
#270=ORIENTED_EDGE('',*,*,#211,.F.);
#271=ORIENTED_EDGE('',*,*,#168,.F.);
#272=ORIENTED_EDGE('',*,*,#210,.T.);
#273=ORIENTED_EDGE('',*,*,#167,.F.);
#274=ORIENTED_EDGE('',*,*,#171,.F.);
#275=ORIENTED_EDGE('',*,*,#174,.F.);
#276=ORIENTED_EDGE('',*,*,#177,.T.);
#277=ORIENTED_EDGE('',*,*,#180,.T.);
#278=ORIENTED_EDGE('',*,*,#183,.T.);
#279=ORIENTED_EDGE('',*,*,#186,.T.);
#280=ORIENTED_EDGE('',*,*,#189,.T.);
#281=ORIENTED_EDGE('',*,*,#192,.F.);
#282=ORIENTED_EDGE('',*,*,#195,.F.);
#283=ORIENTED_EDGE('',*,*,#198,.T.);
#284=ORIENTED_EDGE('',*,*,#201,.F.);
#285=ORIENTED_EDGE('',*,*,#204,.F.);
#286=ORIENTED_EDGE('',*,*,#207,.F.);
#287=ORIENTED_EDGE('',*,*,#211,.T.);
#288=ORIENTED_EDGE('',*,*,#208,.T.);
#289=ORIENTED_EDGE('',*,*,#205,.T.);
#290=ORIENTED_EDGE('',*,*,#202,.T.);
#291=ORIENTED_EDGE('',*,*,#199,.T.);
#292=ORIENTED_EDGE('',*,*,#196,.T.);
#293=ORIENTED_EDGE('',*,*,#193,.T.);
#294=ORIENTED_EDGE('',*,*,#190,.T.);
#295=ORIENTED_EDGE('',*,*,#187,.T.);
#296=ORIENTED_EDGE('',*,*,#184,.T.);
#297=ORIENTED_EDGE('',*,*,#181,.T.);
#298=ORIENTED_EDGE('',*,*,#178,.T.);
#299=ORIENTED_EDGE('',*,*,#175,.T.);
#300=ORIENTED_EDGE('',*,*,#172,.T.);
#301=ORIENTED_EDGE('',*,*,#169,.T.);
#302=PLANE('',#336);
#303=PLANE('',#337);
#304=PLANE('',#338);
#305=PLANE('',#339);
#306=PLANE('',#340);
#307=PLANE('',#341);
#308=PLANE('',#342);
#309=PLANE('',#343);
#310=PLANE('',#344);
#311=PLANE('',#348);
#312=PLANE('',#349);
#313=PLANE('',#350);
#314=PLANE('',#354);
#315=PLANE('',#355);
#316=PLANE('',#356);
#317=ADVANCED_FACE('',(#21),#302,.T.);
#318=ADVANCED_FACE('',(#22),#303,.T.);
#319=ADVANCED_FACE('',(#23),#304,.T.);
#320=ADVANCED_FACE('',(#24),#305,.T.);
#321=ADVANCED_FACE('',(#25),#306,.T.);
#322=ADVANCED_FACE('',(#26),#307,.T.);
#323=ADVANCED_FACE('',(#27),#308,.T.);
#324=ADVANCED_FACE('',(#28),#309,.T.);
#325=ADVANCED_FACE('',(#29),#310,.T.);
#326=ADVANCED_FACE('',(#30),#19,.F.);
#327=ADVANCED_FACE('',(#31),#311,.T.);
#328=ADVANCED_FACE('',(#32),#312,.T.);
#329=ADVANCED_FACE('',(#33),#313,.T.);
#330=ADVANCED_FACE('',(#34),#20,.F.);
#331=ADVANCED_FACE('',(#35),#314,.T.);
#332=ADVANCED_FACE('',(#36),#315,.T.);
#333=ADVANCED_FACE('',(#37),#316,.F.);
#334=CLOSED_SHELL('',(#317,#318,#319,#320,#321,#322,#323,#324,#325,#326,
#327,#328,#329,#330,#331,#332,#333));
#335=AXIS2_PLACEMENT_3D('',#442,#357,#358);
#336=AXIS2_PLACEMENT_3D('',#443,#359,#360);
#337=AXIS2_PLACEMENT_3D('',#452,#365,#366);
#338=AXIS2_PLACEMENT_3D('',#458,#370,#371);
#339=AXIS2_PLACEMENT_3D('',#464,#375,#376);
#340=AXIS2_PLACEMENT_3D('',#470,#380,#381);
#341=AXIS2_PLACEMENT_3D('',#476,#385,#386);
#342=AXIS2_PLACEMENT_3D('',#482,#390,#391);
#343=AXIS2_PLACEMENT_3D('',#488,#395,#396);
#344=AXIS2_PLACEMENT_3D('',#494,#400,#401);
#345=AXIS2_PLACEMENT_3D('',#500,#405,#406);
#346=AXIS2_PLACEMENT_3D('',#502,#407,#408);
#347=AXIS2_PLACEMENT_3D('',#504,#409,#410);
#348=AXIS2_PLACEMENT_3D('',#506,#412,#413);
#349=AXIS2_PLACEMENT_3D('',#512,#417,#418);
#350=AXIS2_PLACEMENT_3D('',#518,#422,#423);
#351=AXIS2_PLACEMENT_3D('',#524,#427,#428);
#352=AXIS2_PLACEMENT_3D('',#526,#429,#430);
#353=AXIS2_PLACEMENT_3D('',#528,#431,#432);
#354=AXIS2_PLACEMENT_3D('',#530,#434,#435);
#355=AXIS2_PLACEMENT_3D('',#533,#438,#439);
#356=AXIS2_PLACEMENT_3D('',#534,#440,#441);
#357=DIRECTION('axis',(0.,0.,1.));
#358=DIRECTION('refdir',(1.,0.,0.));
#359=DIRECTION('center_axis',(-0.0308258693084718,0.999524769968897,9.24746177752194E-17));
#360=DIRECTION('ref_axis',(0.999524769968897,0.0308258693084718,-5.40708803572982E-16));
#361=DIRECTION('',(0.999524769968897,0.0308258693084718,-5.40708803572982E-16));
#362=DIRECTION('',(0.,9.25185853854297E-17,-1.));
#363=DIRECTION('',(0.999524769968897,0.0308258693084718,-5.40708803572982E-16));
#364=DIRECTION('',(0.,9.25185853854297E-17,-1.));
#365=DIRECTION('center_axis',(-0.177569619884027,0.984108241045792,9.10483023277001E-17));
#366=DIRECTION('ref_axis',(0.984108241045792,0.177569619884027,-5.2419667981126E-16));
#367=DIRECTION('',(0.984108241045792,0.177569619884027,-5.2419667981126E-16));
#368=DIRECTION('',(0.984108241045792,0.177569619884027,-5.2419667981126E-16));
#369=DIRECTION('',(0.,9.25185853854297E-17,-1.));
#370=DIRECTION('center_axis',(-1.,-2.65698165597351E-31,-2.45820184205705E-47));
#371=DIRECTION('ref_axis',(-2.65698165597351E-31,1.,5.55111512312578E-17));
#372=DIRECTION('',(-2.65698165597351E-31,1.,5.55111512312578E-17));
#373=DIRECTION('',(-2.65698165597351E-31,1.,5.55111512312578E-17));
#374=DIRECTION('',(0.,9.25185853854297E-17,-1.));
#375=DIRECTION('center_axis',(-0.707106781186552,0.707106781186543,6.54205191118236E-17));
#376=DIRECTION('ref_axis',(0.707106781186543,0.707106781186552,-3.4447889740429E-16));
#377=DIRECTION('',(-0.707106781186543,-0.707106781186552,3.4447889740429E-16));
#378=DIRECTION('',(0.707106781186543,0.707106781186552,-3.4447889740429E-16));
#379=DIRECTION('',(0.,9.25185853854297E-17,-1.));
#380=DIRECTION('center_axis',(-0.707106781186545,-0.707106781186551,-6.54205191118242E-17));
#381=DIRECTION('ref_axis',(-0.707106781186551,0.707106781186545,4.22983520338483E-16));
#382=DIRECTION('',(0.70710678118655,-0.707106781186544,-4.22983520338483E-16));
#383=DIRECTION('',(-0.70710678118655,0.707106781186544,4.22983520338483E-16));
#384=DIRECTION('',(0.,9.25185853854297E-17,-1.));
#385=DIRECTION('center_axis',(-1.,7.07697647892669E-15,6.54751852636257E-31));
#386=DIRECTION('ref_axis',(7.07697647892669E-15,1.,5.5511151231254E-17));
#387=DIRECTION('',(-7.07697647892669E-15,-1.,-5.5511151231254E-17));
#388=DIRECTION('',(7.07697647892669E-15,1.,5.5511151231254E-17));
#389=DIRECTION('',(0.,9.25185853854297E-17,-1.));
#390=DIRECTION('center_axis',(-0.177569619884027,-0.984108241045792,-9.10483023277001E-17));
#391=DIRECTION('ref_axis',(-0.984108241045792,0.177569619884027,5.43910867858178E-16));
#392=DIRECTION('',(0.984108241045792,-0.177569619884027,-5.43910867858178E-16));
#393=DIRECTION('',(-0.984108241045792,0.177569619884027,5.43910867858178E-16));
#394=DIRECTION('',(0.,9.25185853854297E-17,-1.));
#395=DIRECTION('center_axis',(-0.0308258693084718,-0.999524769968897,-9.24746177752194E-17));
#396=DIRECTION('ref_axis',(-0.999524769968897,0.0308258693084718,5.44131162559017E-16));
#397=DIRECTION('',(0.999524769968897,-0.0308258693084718,-5.44131162559017E-16));
#398=DIRECTION('',(-0.999524769968897,0.0308258693084718,5.44131162559017E-16));
#399=DIRECTION('',(0.,9.25185853854297E-17,-1.));
#400=DIRECTION('center_axis',(0.531097582991542,-0.847310661646921,-7.83919837975656E-17));
#401=DIRECTION('ref_axis',(-0.847310661646921,-0.531097582991542,4.30334915224219E-16));
#402=DIRECTION('',(-0.847310661646921,-0.531097582991542,4.30334915224219E-16));
#403=DIRECTION('',(-0.847310661646921,-0.531097582991542,4.30334915224219E-16));
#404=DIRECTION('',(0.,9.25185853854297E-17,-1.));
#405=DIRECTION('center_axis',(0.,9.25185853854297E-17,-1.));
#406=DIRECTION('ref_axis',(0.707106781186502,0.707106781186593,6.54205191118281E-17));
#407=DIRECTION('center_axis',(5.42677879891739E-16,-5.55111512312575E-17,
1.));
#408=DIRECTION('ref_axis',(0.707106781186502,0.707106781186593,-3.44478897404266E-16));
#409=DIRECTION('center_axis',(5.42677879891739E-16,-5.55111512312575E-17,
1.));
#410=DIRECTION('ref_axis',(0.707106781186502,0.707106781186593,-3.44478897404266E-16));
#411=DIRECTION('',(0.,9.25185853854297E-17,-1.));
#412=DIRECTION('center_axis',(-0.707106781186546,-0.707106781186549,-6.54205191118241E-17));
#413=DIRECTION('ref_axis',(-0.707106781186549,0.707106781186546,4.22983520338482E-16));
#414=DIRECTION('',(0.707106781186549,-0.707106781186546,-4.22983520338482E-16));
#415=DIRECTION('',(-0.707106781186549,0.707106781186546,4.22983520338482E-16));
#416=DIRECTION('',(0.,9.25185853854297E-17,-1.));
#417=DIRECTION('center_axis',(1.,2.65698165597351E-31,2.45820184205705E-47));
#418=DIRECTION('ref_axis',(2.65698165597351E-31,-1.,-5.55111512312578E-17));
#419=DIRECTION('',(2.65698165597351E-31,-1.,-5.55111512312578E-17));
#420=DIRECTION('',(2.65698165597351E-31,-1.,-5.55111512312578E-17));
#421=DIRECTION('',(0.,9.25185853854297E-17,-1.));
#422=DIRECTION('center_axis',(-0.707106781186546,0.707106781186549,6.54205191118241E-17));
#423=DIRECTION('ref_axis',(0.707106781186549,0.707106781186546,-3.44478897404294E-16));
#424=DIRECTION('',(0.707106781186549,0.707106781186546,-3.44478897404294E-16));
#425=DIRECTION('',(0.707106781186549,0.707106781186546,-3.44478897404294E-16));
#426=DIRECTION('',(0.,9.25185853854297E-17,-1.));
#427=DIRECTION('center_axis',(0.,9.25185853854297E-17,-1.));
#428=DIRECTION('ref_axis',(-1.,5.38458166943085E-13,4.98173878948058E-29));
#429=DIRECTION('center_axis',(5.42677879891739E-16,-5.55111512312575E-17,
1.));
#430=DIRECTION('ref_axis',(-1.,5.38458166943085E-13,5.42677879891769E-16));
#431=DIRECTION('center_axis',(5.42677879891739E-16,-5.55111512312575E-17,
1.));
#432=DIRECTION('ref_axis',(-1.,5.38458166943085E-13,5.42677879891769E-16));
#433=DIRECTION('',(0.,9.25185853854297E-17,-1.));
#434=DIRECTION('center_axis',(0.531097582991542,0.847310661646921,7.83919837975656E-17));
#435=DIRECTION('ref_axis',(0.847310661646921,-0.531097582991542,-4.89298591720217E-16));
#436=DIRECTION('',(-0.847310661646921,0.531097582991542,4.89298591720217E-16));
#437=DIRECTION('',(0.847310661646921,-0.531097582991542,-4.89298591720217E-16));
#438=DIRECTION('center_axis',(5.42677879891739E-16,-5.55111512312574E-17,
1.));
#439=DIRECTION('ref_axis',(-1.,-2.95822839457879E-31,5.42677879891739E-16));
#440=DIRECTION('center_axis',(5.42677879891739E-16,-5.55111512312574E-17,
1.));
#441=DIRECTION('ref_axis',(-1.,-2.95822839457879E-31,5.42677879891739E-16));
#442=CARTESIAN_POINT('',(0.,0.,0.));
#443=CARTESIAN_POINT('Origin',(-140.185736596192,3.15262944303218,-24.9));
#444=CARTESIAN_POINT('',(-140.185736596192,3.15262944303218,-24.9));
#445=CARTESIAN_POINT('',(-138.554178060257,3.20294756591312,-24.9));
#446=CARTESIAN_POINT('',(-140.185736596192,3.15262944303218,-24.9));
#447=CARTESIAN_POINT('',(-138.554178060257,3.20294756591312,-30.9));
#448=CARTESIAN_POINT('',(-138.554178060257,3.20294756591312,-24.9));
#449=CARTESIAN_POINT('',(-140.185736596192,3.15262944303218,-30.9));
#450=CARTESIAN_POINT('',(-140.185736596192,3.15262944303218,-30.9));
#451=CARTESIAN_POINT('',(-140.185736596192,3.15262944303218,-24.9));
#452=CARTESIAN_POINT('Origin',(-142.499999999999,2.73505050629973,-24.9));
#453=CARTESIAN_POINT('',(-142.499999999999,2.73505050629973,-24.9));
#454=CARTESIAN_POINT('',(-142.499999999999,2.73505050629973,-24.9));
#455=CARTESIAN_POINT('',(-142.499999999999,2.73505050629973,-30.9));
#456=CARTESIAN_POINT('',(-142.499999999999,2.73505050629973,-30.9));
#457=CARTESIAN_POINT('',(-142.499999999999,2.73505050629973,-24.9));
#458=CARTESIAN_POINT('Origin',(-142.499999999999,0.224999999999797,-24.9));
#459=CARTESIAN_POINT('',(-142.499999999999,0.224999999999797,-24.9));
#460=CARTESIAN_POINT('',(-142.499999999999,0.224999999999797,-24.9));
#461=CARTESIAN_POINT('',(-142.499999999999,0.224999999999798,-30.9));
#462=CARTESIAN_POINT('',(-142.499999999999,0.224999999999798,-30.9));
#463=CARTESIAN_POINT('',(-142.499999999999,0.224999999999797,-24.9));
#464=CARTESIAN_POINT('Origin',(-142.999999999999,-0.275000000000074,-24.9));
#465=CARTESIAN_POINT('',(-142.999999999999,-0.275000000000074,-24.9));
#466=CARTESIAN_POINT('',(-142.499999999999,0.224999999999797,-24.9));
#467=CARTESIAN_POINT('',(-142.999999999999,-0.275000000000074,-30.9));
#468=CARTESIAN_POINT('',(-142.499999999999,0.224999999999798,-30.9));
#469=CARTESIAN_POINT('',(-142.999999999999,-0.275000000000074,-24.9));
#470=CARTESIAN_POINT('Origin',(-142.499999999999,-0.77499999999997,-24.9));
#471=CARTESIAN_POINT('',(-142.499999999999,-0.77499999999997,-24.9));
#472=CARTESIAN_POINT('',(-142.999999999999,-0.275000000000074,-24.9));
#473=CARTESIAN_POINT('',(-142.499999999999,-0.77499999999997,-30.9));
#474=CARTESIAN_POINT('',(-142.999999999999,-0.275000000000074,-30.9));
#475=CARTESIAN_POINT('',(-142.499999999999,-0.77499999999997,-24.9));
#476=CARTESIAN_POINT('Origin',(-142.499999999999,-3.28505050629988,-24.9));
#477=CARTESIAN_POINT('',(-142.499999999999,-3.28505050629988,-24.9));
#478=CARTESIAN_POINT('',(-142.499999999999,-0.77499999999997,-24.9));
#479=CARTESIAN_POINT('',(-142.499999999999,-3.28505050629988,-30.9));
#480=CARTESIAN_POINT('',(-142.499999999999,-0.77499999999997,-30.9));
#481=CARTESIAN_POINT('',(-142.499999999999,-3.28505050629988,-24.9));
#482=CARTESIAN_POINT('Origin',(-140.185736596192,-3.70262944303233,-24.9));
#483=CARTESIAN_POINT('',(-140.185736596192,-3.70262944303233,-24.9));
#484=CARTESIAN_POINT('',(-142.499999999999,-3.28505050629988,-24.9));
#485=CARTESIAN_POINT('',(-140.185736596192,-3.70262944303233,-30.9));
#486=CARTESIAN_POINT('',(-142.499999999999,-3.28505050629988,-30.9));
#487=CARTESIAN_POINT('',(-140.185736596192,-3.70262944303233,-24.9));
#488=CARTESIAN_POINT('Origin',(-138.554178060257,-3.75294756591327,-24.9));
#489=CARTESIAN_POINT('',(-138.554178060257,-3.75294756591327,-24.9));
#490=CARTESIAN_POINT('',(-140.185736596192,-3.70262944303233,-24.9));
#491=CARTESIAN_POINT('',(-138.554178060257,-3.75294756591327,-30.9));
#492=CARTESIAN_POINT('',(-140.185736596192,-3.70262944303233,-30.9));
#493=CARTESIAN_POINT('',(-138.554178060257,-3.75294756591327,-24.9));
#494=CARTESIAN_POINT('Origin',(-138.286168616374,-3.58495821524387,-24.9));
#495=CARTESIAN_POINT('',(-138.286168616374,-3.58495821524387,-24.9));
#496=CARTESIAN_POINT('',(-138.286168616374,-3.58495821524387,-24.9));
#497=CARTESIAN_POINT('',(-138.286168616374,-3.58495821524387,-30.9));
#498=CARTESIAN_POINT('',(-138.286168616374,-3.58495821524387,-30.9));
#499=CARTESIAN_POINT('',(-138.286168616374,-3.58495821524387,-24.9));
#500=CARTESIAN_POINT('Origin',(-137.999999999999,-3.67500000000158,-24.9));
#501=CARTESIAN_POINT('',(-137.787867965643,-3.46286796564557,-24.9));
#502=CARTESIAN_POINT('Origin',(-137.999999999999,-3.67500000000158,-24.9));
#503=CARTESIAN_POINT('',(-137.787867965643,-3.46286796564557,-30.9));
#504=CARTESIAN_POINT('Origin',(-137.999999999999,-3.67500000000158,-30.9));
#505=CARTESIAN_POINT('',(-137.787867965643,-3.46286796564557,-24.9));
#506=CARTESIAN_POINT('Origin',(-137.187867965644,-4.0628679656452,-24.9));
#507=CARTESIAN_POINT('',(-137.187867965644,-4.0628679656452,-24.9));
#508=CARTESIAN_POINT('',(-137.787867965643,-3.46286796564557,-24.9));
#509=CARTESIAN_POINT('',(-137.187867965644,-4.0628679656452,-30.9));
#510=CARTESIAN_POINT('',(-137.787867965643,-3.46286796564557,-30.9));
#511=CARTESIAN_POINT('',(-137.187867965644,-4.0628679656452,-24.9));
#512=CARTESIAN_POINT('Origin',(-137.187867965644,3.51286796564505,-24.9));
#513=CARTESIAN_POINT('',(-137.187867965644,3.51286796564505,-24.9));
#514=CARTESIAN_POINT('',(-137.187867965644,3.51286796564505,-24.9));
#515=CARTESIAN_POINT('',(-137.187867965644,3.51286796564505,-30.9));
#516=CARTESIAN_POINT('',(-137.187867965644,3.51286796564505,-30.9));
#517=CARTESIAN_POINT('',(-137.187867965644,3.51286796564505,-24.9));
#518=CARTESIAN_POINT('Origin',(-137.787867965643,2.91286796564543,-24.9));
#519=CARTESIAN_POINT('',(-137.787867965643,2.91286796564541,-24.9));
#520=CARTESIAN_POINT('',(-137.787867965643,2.91286796564542,-24.9));
#521=CARTESIAN_POINT('',(-137.787867965643,2.91286796564541,-30.9));
#522=CARTESIAN_POINT('',(-137.787867965643,2.91286796564542,-30.9));
#523=CARTESIAN_POINT('',(-137.787867965643,2.91286796564541,-24.9));
#524=CARTESIAN_POINT('Origin',(-137.999999999999,3.12500000000143,-24.9));
#525=CARTESIAN_POINT('',(-138.286168616374,3.03495821524373,-24.9));
#526=CARTESIAN_POINT('Origin',(-137.999999999999,3.12500000000143,-24.9));
#527=CARTESIAN_POINT('',(-138.286168616374,3.03495821524373,-30.9));
#528=CARTESIAN_POINT('Origin',(-137.999999999999,3.12500000000143,-30.9));
#529=CARTESIAN_POINT('',(-138.286168616374,3.03495821524373,-24.9));
#530=CARTESIAN_POINT('Origin',(-138.554178060257,3.20294756591312,-24.9));
#531=CARTESIAN_POINT('',(-138.286168616374,3.03495821524373,-24.9));
#532=CARTESIAN_POINT('',(-138.286168616374,3.03495821524373,-30.9));
#533=CARTESIAN_POINT('Origin',(-140.093933982821,-0.275000000000074,-24.9));
#534=CARTESIAN_POINT('Origin',(-140.093933982821,-0.275000000000074,-30.9));
#535=UNCERTAINTY_MEASURE_WITH_UNIT(LENGTH_MEASURE(0.01),#539,
'DISTANCE_ACCURACY_VALUE',
'Maximum model space distance between geometric entities at asserted c
onnectivities');
#536=UNCERTAINTY_MEASURE_WITH_UNIT(LENGTH_MEASURE(0.01),#539,
'DISTANCE_ACCURACY_VALUE',
'Maximum model space distance between geometric entities at asserted c
onnectivities');
#537=(
GEOMETRIC_REPRESENTATION_CONTEXT(3)
GLOBAL_UNCERTAINTY_ASSIGNED_CONTEXT((#535))
GLOBAL_UNIT_ASSIGNED_CONTEXT((#539,#540,#541))
REPRESENTATION_CONTEXT('','3D')
);
#538=(
GEOMETRIC_REPRESENTATION_CONTEXT(3)
GLOBAL_UNCERTAINTY_ASSIGNED_CONTEXT((#536))
GLOBAL_UNIT_ASSIGNED_CONTEXT((#539,#540,#541))
REPRESENTATION_CONTEXT('','3D')
);
#539=(
LENGTH_UNIT()
NAMED_UNIT(*)
SI_UNIT(.MILLI.,.METRE.)
);
#540=(
NAMED_UNIT(*)
PLANE_ANGLE_UNIT()
SI_UNIT($,.RADIAN.)
);
#541=(
NAMED_UNIT(*)
SI_UNIT($,.STERADIAN.)
SOLID_ANGLE_UNIT()
);
#542=SHAPE_DEFINITION_REPRESENTATION(#543,#544);
#543=PRODUCT_DEFINITION_SHAPE('',$,#546);
#544=SHAPE_REPRESENTATION('',(#335),#537);
#545=PRODUCT_DEFINITION_CONTEXT('part definition',#550,'design');
#546=PRODUCT_DEFINITION('Aluminum Extrusion Inserts',
'Aluminum Extrusion Inserts v2',#547,#545);
#547=PRODUCT_DEFINITION_FORMATION('',$,#552);
#548=PRODUCT_RELATED_PRODUCT_CATEGORY('Aluminum Extrusion Inserts v2',
'Aluminum Extrusion Inserts v2',(#552));
#549=APPLICATION_PROTOCOL_DEFINITION('international standard',
'automotive_design',2009,#550);
#550=APPLICATION_CONTEXT(
'Core Data for Automotive Mechanical Design Process');
#551=PRODUCT_CONTEXT('part definition',#550,'mechanical');
#552=PRODUCT('Aluminum Extrusion Inserts',
'Aluminum Extrusion Inserts v2',$,(#551));
#553=PRESENTATION_STYLE_ASSIGNMENT((#554));
#554=SURFACE_STYLE_USAGE(.BOTH.,#555);
#555=SURFACE_SIDE_STYLE('',(#556));
#556=SURFACE_STYLE_FILL_AREA(#557);
#557=FILL_AREA_STYLE('Steel - Satin',(#558));
#558=FILL_AREA_STYLE_COLOUR('Steel - Satin',#559);
#559=COLOUR_RGB('Steel - Satin',0.627450980392157,0.627450980392157,0.627450980392157);
ENDSEC;
END-ISO-10303-21;
